Pages with the fewest revisions

Jump to: navigation, search

Showing below up to 250 results in range #1 to #250.

View (previous 250 | next 250) (20 | 50 | 100 | 250 | 500)

  1. -----------------------------------------------------------------------------------------------------------------------------------------------------------------------------------------------------------------------c‏‎ (1 revision)
  2. --------------------------------------------------------------------------------------------------------------------------------------------------------------------------------------------------------i‏‎ (1 revision)
  3. --------------------------------------------------------------------------------------------------------------------------------------------------------------------------------------------------------p‏‎ (1 revision)
  4. ------------------------------------------------------------------------------------------------------------------------------------------------------------------------------------------------------t‏‎ (1 revision)
  5. ----------------------------------------------------------------------------------------------------------------------------------------------------------------------------------------------------k‏‎ (1 revision)
  6. -------------------------------------------------------------------------------------------------------------------------------------------------------------------------------------------------b‏‎ (1 revision)
  7. -------------------------------------------------------------------------------------------------------------------------------------------------------------------------------------------------n‏‎ (1 revision)
  8. -------------------------------------------------------------------------------------------------------------------------------------------------------------------------------------------------o‏‎ (1 revision)
  9. ------------------------------------------------------------------------------------------------------------------------------------------------------------------------------------------------j‏‎ (1 revision)
  10. ------------------------------------------------------------------------------------------------------------------------------------------------------------------------------------------------l‏‎ (1 revision)
  11. ----------------------------------------------------------------------------------------------------------------------------------------------------------------------------------------------f‏‎ (1 revision)
  12. ----------------------------------------------------------------------------------------------------------------------------------------------------------------------------------------------y‏‎ (1 revision)
  13. -------------------------------------------------------------------------------------------------------------------------------------------------------------------------------------------v‏‎ (1 revision)
  14. ------------------------------------------------------------------------------------------------------------------------------------------------------------------------------------o‏‎ (1 revision)
  15. ---------------------------------------------------------------------------------------------------------------------------------------------------------------------------------e‏‎ (1 revision)
  16. ---------------------------------------------------------------------------------------------------------------------------------------------------------------------------------h‏‎ (1 revision)
  17. ---------------------------------------------------------------------------------------------------------------------------------------------------------------------------------w‏‎ (1 revision)
  18. -----------------------------------------------------------------------------------------------------------------------------------------------------------------------------e‏‎ (1 revision)
  19. -----------------------------------------------------------------------------------------------------------------------------------------------------------------------------y‏‎ (1 revision)
  20. ---------------------------------------------------------------------------------------------------------------------------------------------------------------------------c‏‎ (1 revision)
  21. ---------------------------------------------------------------------------------------------------------------------------------------------------------------------------l‏‎ (1 revision)
  22. ---------------------------------------------------------------------------------------------------------------------------------------------------------------------------m‏‎ (1 revision)
  23. ---------------------------------------------------------------------------------------------------------------------------------------------------------------------------o‏‎ (1 revision)
  24. ------------------------------------------------------------------------------------------------------------------------------------------------------------------------t‏‎ (1 revision)
  25. -----------------------------------------------------------------------------------------------------------------------------------------------------------------------z‏‎ (1 revision)
  26. ---------------------------------------------------------------------------------------------------------------------------------------------------------------------h‏‎ (1 revision)
  27. ---------------------------------------------------------------------------------------------------------------------------------------------------------------------i‏‎ (1 revision)
  28. ---------------------------------------------------------------------------------------------------------------------------------------------------------------------m‏‎ (1 revision)
  29. --------------------------------------------------------------------------------------------------------------------------------------------------------------------h‏‎ (1 revision)
  30. -----------------------------------------------------------------------------------------------------------------------------------------------------------------d‏‎ (1 revision)
  31. -----------------------------------------------------------------------------------------------------------------------------------------------------------------u‏‎ (1 revision)
  32. -------------------------------------------------------------------------------------------------------------------------------------------------------------j‏‎ (1 revision)
  33. ------------------------------------------------------------------------------------------------------------------------------------------------------------s‏‎ (1 revision)
  34. -----------------------------------------------------------------------------------------------------------------------------------------------------------c‏‎ (1 revision)
  35. ---------------------------------------------------------------------------------------------------------------------------------------------------------x‏‎ (1 revision)
  36. --------------------------------------------------------------------------------------------------------------------------------------------------------e‏‎ (1 revision)
  37. ------------------------------------------------------------------------------------------------------------------------------------------------------l‏‎ (1 revision)
  38. ------------------------------------------------------------------------------------------------------------------------------------------------------q‏‎ (1 revision)
  39. ------------------------------------------------------------------------------------------------------------------------------------------------------y‏‎ (1 revision)
  40. -----------------------------------------------------------------------------------------------------------------------------------------5---------------------------------------------------r‏‎ (1 revision)
  41. ------------------------------------------------------------------------------------------------------------------------------------50-----100000-------------g‏‎ (1 revision)
  42. -----------------------------------------------------------------------------------------------------------------------------k‏‎ (1 revision)
  43. ---------------------------------------------------------------------------------------------------------------------------10----------------------------------------------------------d‏‎ (1 revision)
  44. ---------------------------------------------------------------------------------------------------------------------------10----------------------------------------------------------o‏‎ (1 revision)
  45. ---------------------------------------------------------------------------------------------------------------------------100-------------------------------------------------------------------d‏‎ (1 revision)
  46. ----------------------------------------------------------------------------------------------------5-----------------------------------------------------------------a‏‎ (1 revision)
  47. -------------------------------------------------------------------------------------Ace---------------------------------39----------13-------------3-------------------------Round--------------------------------------------------------h‏‎ (1 revision)
  48. ----------------------------------------------------------------------------------888------22bet-----1500---------f‏‎ (1 revision)
  49. ------------------------------------------------------------------------------Hazarat-bet------------------------------------------------------------------------------------k‏‎ (1 revision)
  50. ---------------------------------------------------------------------pablo-bet----------------------------------------------------------------------------------------------------------------------v‏‎ (1 revision)
  51. -----------------------------------------------------------100----------------------------------------------------------------------------------------------------------------------m‏‎ (1 revision)
  52. -----------------------------------------------------------gorgbet-------------------------------98------------------------------------------------------TakTik---------------------------1398-------a‏‎ (1 revision)
  53. ----------------------------------------------------------124--------------------21---4----------------------------------870--------------------------------SPSS--Lisrel------------------------------x‏‎ (1 revision)
  54. --------------------------------------------------------h‏‎ (1 revision)
  55. --------------------------------------------------f‏‎ (1 revision)
  56. --------------------------------------------------o‏‎ (1 revision)
  57. --------------------------------------------------w‏‎ (1 revision)
  58. --------------------------------------------------z‏‎ (1 revision)
  59. ------------------------------------------------Super-One---------23---1-----------------------------------------------d‏‎ (1 revision)
  60. ---------------------------------------------a‏‎ (1 revision)
  61. --------------------------------------------h‏‎ (1 revision)
  62. --------------------------------------------p‏‎ (1 revision)
  63. -------------------f‏‎ (1 revision)
  64. --------------------------------------------y‏‎ (1 revision)
  65. -------------------------------------------Top-Hand--Top-Rake-------1932500000---------0000------25k50k------3------------100---Top-Rake-------24--------RANKING-----------------------------------------------------------------------------------1----------k‏‎ (1 revision)
  66. -------------------------------------------Top-Hand--Top-Rake-------1932500000---------0000------25k50k------3------------100---Top-Rake-------24--------RANKING-----------------------------------------------------------------------------------1----------n‏‎ (1 revision)
  67. ------------------------------------------50IRT------------------------------------------------------------------------------------------------------------------------------------l‏‎ (1 revision)
  68. ------------------------------------------u‏‎ (1 revision)
  69. ----------------------------------------a‏‎ (1 revision)
  70. ----------------------------------------g‏‎ (1 revision)
  71. ----------------------------------------t‏‎ (1 revision)
  72. ---------------------------------------1------m‏‎ (1 revision)
  73. --------------------------------------betfa---------------------------------------------------------------------------------------------------------------------------------------betfa----------f‏‎ (1 revision)
  74. --------------------------------------c‏‎ (1 revision)
  75. --------------------------------------e‏‎ (1 revision)
  76. --------------------------------------f‏‎ (1 revision)
  77. --------------------------------------g‏‎ (1 revision)
  78. --------------------------------------h‏‎ (1 revision)
  79. --------------------------------------i‏‎ (1 revision)
  80. --------------------------------------k‏‎ (1 revision)
  81. --------------------------------------n‏‎ (1 revision)
  82. --------------------------------------w‏‎ (1 revision)
  83. -------------------------------------o‏‎ (1 revision)
  84. ------------------------------------c‏‎ (1 revision)
  85. ------------------------------------d‏‎ (1 revision)
  86. ------------------------------------f‏‎ (1 revision)
  87. ------------------------------------g‏‎ (1 revision)
  88. ------------------------------------l‏‎ (1 revision)
  89. ------------------------------------m‏‎ (1 revision)
  90. ------------------------------------n‏‎ (1 revision)
  91. ------------------------------------q‏‎ (1 revision)
  92. ------------------------------------r‏‎ (1 revision)
  93. -----------------bcc119-------l‏‎ (1 revision)
  94. ------------------------------------x‏‎ (1 revision)
  95. ------------------------------------y‏‎ (1 revision)
  96. ----------------a‏‎ (1 revision)
  97. -----------------------------------1------e‏‎ (1 revision)
  98. -------------------------------d‏‎ (1 revision)
  99. -------------------------------g‏‎ (1 revision)
  100. -------------------------------l‏‎ (1 revision)
  101. -------------------------------n‏‎ (1 revision)
  102. -------------------------------s‏‎ (1 revision)
  103. -------------------------------u‏‎ (1 revision)
  104. ---------------6---109-q‏‎ (1 revision)
  105. -------------------------------w‏‎ (1 revision)
  106. -------------------------------y‏‎ (1 revision)
  107. ------------------------------1-------t‏‎ (1 revision)
  108. ------------------------------19--------------------------------------------------------------------5----7-----2------5---------------------------------royal-flush-------------------------x‏‎ (1 revision)
  109. ------------------------------3-----------------------------------3--------------------------------2---------------------------------------------------------------z‏‎ (1 revision)
  110. ------------------------------d‏‎ (1 revision)
  111. ------------------------------m‏‎ (1 revision)
  112. -----------------------------1------v‏‎ (1 revision)
  113. ---------------2---a‏‎ (1 revision)
  114. --------------------g‏‎ (1 revision)
  115. -----------------------------k‏‎ (1 revision)
  116. -----------------------------n‏‎ (1 revision)
  117. -----------------------------o‏‎ (1 revision)
  118. -----------------------------p‏‎ (1 revision)
  119. -----------------------------q‏‎ (1 revision)
  120. -----------------------------r‏‎ (1 revision)
  121. -----------------------------s‏‎ (1 revision)
  122. --------------------x‏‎ (1 revision)
  123. -----------------------------v‏‎ (1 revision)
  124. -----------------------------x‏‎ (1 revision)
  125. -----------------------------z‏‎ (1 revision)
  126. ----------------------------g‏‎ (1 revision)
  127. ----------------------------q‏‎ (1 revision)
  128. -------------------2-1949------------------------------20----------------------------Alan-Pease--------------------------------------------------------23-----------15-----reverse-----------n‏‎ (1 revision)
  129. ----------------------------x‏‎ (1 revision)
  130. ---------------------------2020---------------------g‏‎ (1 revision)
  131. ---------------------------40---b‏‎ (1 revision)
  132. ---------------------------40---e‏‎ (1 revision)
  133. ---------------------------40---q‏‎ (1 revision)
  134. ---------------------------40---s‏‎ (1 revision)
  135. ---------------------------a‏‎ (1 revision)
  136. --------------------d‏‎ (1 revision)
  137. ---------------------------c‏‎ (1 revision)
  138. ---------------------------d‏‎ (1 revision)
  139. --------------------1---1-100-n‏‎ (1 revision)
  140. ------------------r‏‎ (1 revision)
  141. ---------------------------g‏‎ (1 revision)
  142. ---------------------------h‏‎ (1 revision)
  143. -------------------1---25------PBA-5--PBA---4243-1511-815-1315-154-151-015-117-------------sss-----------------CJ-ENM----2----na--------------------------------------------TV------------10-----t‏‎ (1 revision)
  144. -------------------i‏‎ (1 revision)
  145. ---------------------------l‏‎ (1 revision)
  146. --------------------c‏‎ (1 revision)
  147. ---------------------------n‏‎ (1 revision)
  148. ---------------------------r‏‎ (1 revision)
  149. ------------------1-1---u‏‎ (1 revision)
  150. ---------------------------x‏‎ (1 revision)
  151. ------------------1---1-p‏‎ (1 revision)
  152. --------------------------2----------------h‏‎ (1 revision)
  153. --------------------------e‏‎ (1 revision)
  154. --------------------------g‏‎ (1 revision)
  155. --------------------------h‏‎ (1 revision)
  156. --------------------------i‏‎ (1 revision)
  157. ------------------SEO-------w‏‎ (1 revision)
  158. ------------------49--------------ag-----------------------------------------------------------------------------------------------------------k‏‎ (1 revision)
  159. --------------------------p‏‎ (1 revision)
  160. --------------------------s‏‎ (1 revision)
  161. --------------------------u‏‎ (1 revision)
  162. ------------------k‏‎ (1 revision)
  163. --------------------------w‏‎ (1 revision)
  164. --------------------------x‏‎ (1 revision)
  165. ------------------a‏‎ (1 revision)
  166. -------------------------1xbet----------------------Single-Player----Multi-Player---1xbet-----------------------------------------------------------------------------------------------------y‏‎ (1 revision)
  167. -------------------------f‏‎ (1 revision)
  168. -------------------------g‏‎ (1 revision)
  169. -------------------------j‏‎ (1 revision)
  170. -------------------------k‏‎ (1 revision)
  171. ------------------z‏‎ (1 revision)
  172. -------------------------m‏‎ (1 revision)
  173. -------------------------o‏‎ (1 revision)
  174. -------------------------p‏‎ (1 revision)
  175. -------------------------r‏‎ (1 revision)
  176. -------------------------t‏‎ (1 revision)
  177. -------------------------u‏‎ (1 revision)
  178. -------------------------v‏‎ (1 revision)
  179. ------------------------1398------------------------------------------------------------------------------------------------------------------------------k‏‎ (1 revision)
  180. ------------------------2018--2018-2018-w‏‎ (1 revision)
  181. ------------------------3--25000-----o‏‎ (1 revision)
  182. ------------------------3--25000-----q‏‎ (1 revision)
  183. ------------------------3--25000-----t‏‎ (1 revision)
  184. -----------------1-1--1--1--r‏‎ (1 revision)
  185. ------------------------a‏‎ (1 revision)
  186. --------------------a‏‎ (1 revision)
  187. -----------------1---1-100-1--j‏‎ (1 revision)
  188. ------------------------g‏‎ (1 revision)
  189. ------------------------h‏‎ (1 revision)
  190. ------------------v‏‎ (1 revision)
  191. -------------------m‏‎ (1 revision)
  192. ------------------------m‏‎ (1 revision)
  193. ------------------------n‏‎ (1 revision)
  194. ------------------------p‏‎ (1 revision)
  195. ------------------------q‏‎ (1 revision)
  196. ------------------------s‏‎ (1 revision)
  197. -----------------g‏‎ (1 revision)
  198. ------------------------v‏‎ (1 revision)
  199. -----------------bcc119-------p‏‎ (1 revision)
  200. -----------------bcc119-------c‏‎ (1 revision)
  201. -----------------------1---1-1--q‏‎ (1 revision)
  202. -----------------------LG--CATL------------d‏‎ (1 revision)
  203. -----------------------LG--CATL------------e‏‎ (1 revision)
  204. -----------------r‏‎ (1 revision)
  205. -----------------------LG--CATL------------i‏‎ (1 revision)
  206. -----------------------LG--CATL------------k‏‎ (1 revision)
  207. -----------------------LG--CATL------------l‏‎ (1 revision)
  208. -----------------------LG--CATL------------r‏‎ (1 revision)
  209. -----------------------LG--CATL------------t‏‎ (1 revision)
  210. -----------------------LG--CATL------------x‏‎ (1 revision)
  211. -----------------v‏‎ (1 revision)
  212. -----------------------c‏‎ (1 revision)
  213. -----------------------d‏‎ (1 revision)
  214. -----------------w‏‎ (1 revision)
  215. -----------------------f‏‎ (1 revision)
  216. -----------------t‏‎ (1 revision)
  217. -----------------------j‏‎ (1 revision)
  218. -----------------------l‏‎ (1 revision)
  219. -----------------h‏‎ (1 revision)
  220. -----------------------p‏‎ (1 revision)
  221. -----------------------r‏‎ (1 revision)
  222. -----------------------t‏‎ (1 revision)
  223. ---------------2---d‏‎ (1 revision)
  224. ----------------bcc119-------z‏‎ (1 revision)
  225. --------------------l‏‎ (1 revision)
  226. ----------------------1-1---a‏‎ (1 revision)
  227. ----------------------56------k‏‎ (1 revision)
  228. ----------------------56------o‏‎ (1 revision)
  229. ----------------------56------u‏‎ (1 revision)
  230. ---------------2---r‏‎ (1 revision)
  231. ---------------------i‏‎ (1 revision)
  232. ---------------bcc119-------a‏‎ (1 revision)
  233. ----------------------d‏‎ (1 revision)
  234. --------------------r‏‎ (1 revision)
  235. ----------------------f‏‎ (1 revision)
  236. ---------------2---n‏‎ (1 revision)
  237. ---------------2---t‏‎ (1 revision)
  238. ---------------6---109-c‏‎ (1 revision)
  239. ---------------6---109-e‏‎ (1 revision)
  240. ---------------6---109-m‏‎ (1 revision)
  241. -----------------a‏‎ (1 revision)
  242. --------------------z‏‎ (1 revision)
  243. ----------------------p‏‎ (1 revision)
  244. ----------------------q‏‎ (1 revision)
  245. ---------------bcc119-------b‏‎ (1 revision)
  246. ----------------1--1---1-1-1--e‏‎ (1 revision)
  247. ----------------------t‏‎ (1 revision)
  248. 토토사이트‏‎ (1 revision)
  249. --------------------w‏‎ (1 revision)
  250. ---------------bcc119-------j‏‎ (1 revision)

View (previous 250 | next 250) (20 | 50 | 100 | 250 | 500)