Dead-end pages

Jump to: navigation, search

The following pages do not link to other pages in Greening of Aiken.

Showing below up to 500 results in range #51 to #550.

View (previous 500 | next 500) (20 | 50 | 100 | 250 | 500)

  1. -----------------------------------------------------------100----------------------------------------------------------------------------------------------------------------------m
  2. -----------------------------------------------------------gorgbet-------------------------------98------------------------------------------------------TakTik---------------------------1398-------a
  3. ----------------------------------------------------------124--------------------21---4----------------------------------870--------------------------------SPSS--Lisrel------------------------------x
  4. --------------------------------------------------------h
  5. --------------------------------------------------f
  6. --------------------------------------------------o
  7. --------------------------------------------------w
  8. --------------------------------------------------z
  9. ------------------------------------------------Super-One---------23---1-----------------------------------------------d
  10. ---------------------------------------------a
  11. --------------------------------------------h
  12. --------------------------------------------p
  13. --------------------------------------------x
  14. --------------------------------------------y
  15. -------------------------------------------Top-Hand--Top-Rake-------1932500000---------0000------25k50k------3------------100---Top-Rake-------24--------RANKING-----------------------------------------------------------------------------------1----------k
  16. -------------------------------------------Top-Hand--Top-Rake-------1932500000---------0000------25k50k------3------------100---Top-Rake-------24--------RANKING-----------------------------------------------------------------------------------1----------n
  17. ------------------------------------------50IRT------------------------------------------------------------------------------------------------------------------------------------l
  18. ------------------------------------------u
  19. ----------------------------------------a
  20. ----------------------------------------g
  21. ----------------------------------------t
  22. ---------------------------------------1------m
  23. --------------------------------------betfa---------------------------------------------------------------------------------------------------------------------------------------betfa----------f
  24. --------------------------------------c
  25. --------------------------------------e
  26. --------------------------------------f
  27. --------------------------------------g
  28. --------------------------------------h
  29. --------------------------------------i
  30. --------------------------------------k
  31. --------------------------------------n
  32. --------------------------------------w
  33. -------------------------------------o
  34. ------------------------------------c
  35. ------------------------------------d
  36. ------------------------------------f
  37. ------------------------------------g
  38. ------------------------------------l
  39. ------------------------------------m
  40. ------------------------------------n
  41. ------------------------------------q
  42. ------------------------------------r
  43. ------------------------------------s
  44. ------------------------------------x
  45. ------------------------------------y
  46. ------------------------------------z
  47. -----------------------------------1------e
  48. -------------------------------d
  49. -------------------------------g
  50. -------------------------------l
  51. -------------------------------n
  52. -------------------------------s
  53. -------------------------------u
  54. -------------------------------v
  55. -------------------------------w
  56. -------------------------------y
  57. ------------------------------1-------t
  58. ------------------------------19--------------------------------------------------------------------5----7-----2------5---------------------------------royal-flush-------------------------x
  59. ------------------------------3-----------------------------------3--------------------------------2---------------------------------------------------------------z
  60. ------------------------------d
  61. ------------------------------m
  62. -----------------------------1------v
  63. -----------------------------d
  64. -----------------------------j
  65. -----------------------------k
  66. -----------------------------n
  67. -----------------------------o
  68. -----------------------------p
  69. -----------------------------q
  70. -----------------------------r
  71. -----------------------------s
  72. -----------------------------u
  73. -----------------------------v
  74. -----------------------------x
  75. -----------------------------z
  76. ----------------------------g
  77. ----------------------------q
  78. ----------------------------u
  79. ----------------------------x
  80. ---------------------------2020---------------------g
  81. ---------------------------40---b
  82. ---------------------------40---e
  83. ---------------------------40---q
  84. ---------------------------40---s
  85. ---------------------------a
  86. ---------------------------b
  87. ---------------------------c
  88. ---------------------------d
  89. ---------------------------e
  90. ---------------------------f
  91. ---------------------------g
  92. ---------------------------h
  93. ---------------------------i
  94. ---------------------------j
  95. ---------------------------l
  96. ---------------------------m
  97. ---------------------------n
  98. ---------------------------r
  99. ---------------------------u
  100. ---------------------------x
  101. ---------------------------y
  102. --------------------------2----------------h
  103. --------------------------e
  104. --------------------------g
  105. --------------------------h
  106. --------------------------i
  107. --------------------------m
  108. --------------------------n
  109. --------------------------p
  110. --------------------------s
  111. --------------------------u
  112. --------------------------v
  113. --------------------------w
  114. --------------------------x
  115. --------------------------z
  116. -------------------------1xbet----------------------Single-Player----Multi-Player---1xbet-----------------------------------------------------------------------------------------------------y
  117. -------------------------f
  118. -------------------------g
  119. -------------------------j
  120. -------------------------k
  121. -------------------------l
  122. -------------------------m
  123. -------------------------o
  124. -------------------------p
  125. -------------------------r
  126. -------------------------t
  127. -------------------------u
  128. -------------------------v
  129. ------------------------1398------------------------------------------------------------------------------------------------------------------------------k
  130. ------------------------2018--2018-2018-w
  131. ------------------------3--25000-----o
  132. ------------------------3--25000-----q
  133. ------------------------3--25000-----t
  134. ------------------------3--25000-----u
  135. ------------------------a
  136. ------------------------b
  137. ------------------------f
  138. ------------------------g
  139. ------------------------h
  140. ------------------------i
  141. ------------------------l
  142. ------------------------m
  143. ------------------------n
  144. ------------------------p
  145. ------------------------q
  146. ------------------------s
  147. ------------------------u
  148. ------------------------v
  149. ------------------------w
  150. ------------------------x
  151. -----------------------1---1-1--q
  152. -----------------------LG--CATL------------d
  153. -----------------------LG--CATL------------e
  154. -----------------------LG--CATL------------h
  155. -----------------------LG--CATL------------i
  156. -----------------------LG--CATL------------k
  157. -----------------------LG--CATL------------l
  158. -----------------------LG--CATL------------r
  159. -----------------------LG--CATL------------t
  160. -----------------------LG--CATL------------x
  161. -----------------------LG--CATL------------y
  162. -----------------------c
  163. -----------------------d
  164. -----------------------e
  165. -----------------------f
  166. -----------------------h
  167. -----------------------j
  168. -----------------------l
  169. -----------------------o
  170. -----------------------p
  171. -----------------------r
  172. -----------------------t
  173. -----------------------v
  174. -----------------------w
  175. -----------------------z
  176. ----------------------1-1---a
  177. ----------------------56------k
  178. ----------------------56------o
  179. ----------------------56------u
  180. ----------------------a
  181. ----------------------b
  182. ----------------------c
  183. ----------------------d
  184. ----------------------e
  185. ----------------------f
  186. ----------------------g
  187. ----------------------h
  188. ----------------------j
  189. ----------------------k
  190. ----------------------l
  191. ----------------------n
  192. ----------------------o
  193. ----------------------p
  194. ----------------------q
  195. ----------------------r
  196. ----------------------s
  197. ----------------------t
  198. ----------------------u
  199. ----------------------w
  200. ----------------------x
  201. ----------------------y
  202. ----------------------z
  203. ---------------------SEO-------g
  204. ---------------------a
  205. ---------------------b
  206. ---------------------c
  207. ---------------------d
  208. ---------------------e
  209. ---------------------f
  210. ---------------------g
  211. ---------------------h
  212. ---------------------i
  213. ---------------------j
  214. ---------------------k
  215. ---------------------l
  216. ---------------------m
  217. ---------------------n
  218. ---------------------o
  219. ---------------------t
  220. ---------------------v
  221. ---------------------w
  222. ---------------------x
  223. ---------------------y
  224. ---------------------z
  225. --------------------1---1-100-n
  226. --------------------a
  227. --------------------b
  228. --------------------c
  229. --------------------d
  230. --------------------f
  231. --------------------g
  232. --------------------h
  233. --------------------i
  234. --------------------j
  235. --------------------k
  236. --------------------l
  237. --------------------m
  238. --------------------o
  239. --------------------q
  240. --------------------r
  241. --------------------s
  242. --------------------t
  243. --------------------u
  244. --------------------v
  245. --------------------w
  246. --------------------x
  247. --------------------y
  248. --------------------z
  249. -------------------1---25------PBA-5--PBA---4243-1511-815-1315-154-151-015-117-------------sss-----------------CJ-ENM----2----na--------------------------------------------TV------------10-----t
  250. -------------------2-1949------------------------------20----------------------------Alan-Pease--------------------------------------------------------23-----------15-----reverse-----------n
  251. -------------------a
  252. -------------------b
  253. -------------------c
  254. -------------------d
  255. -------------------e
  256. -------------------f
  257. -------------------g
  258. -------------------h
  259. -------------------i
  260. -------------------j
  261. -------------------k
  262. -------------------l
  263. -------------------m
  264. -------------------n
  265. -------------------o
  266. -------------------p
  267. -------------------q
  268. -------------------r
  269. -------------------s
  270. -------------------t
  271. -------------------u
  272. -------------------v
  273. -------------------w
  274. -------------------x
  275. -------------------y
  276. -------------------z
  277. ------------------1---1-p
  278. ------------------1-1---u
  279. ------------------49--------------ag-----------------------------------------------------------------------------------------------------------k
  280. ------------------SEO-------w
  281. ------------------a
  282. ------------------b
  283. ------------------c
  284. ------------------d
  285. ------------------e
  286. ------------------f
  287. ------------------g
  288. ------------------h
  289. ------------------i
  290. ------------------j
  291. ------------------k
  292. ------------------l
  293. ------------------m
  294. ------------------n
  295. ------------------o
  296. ------------------p
  297. ------------------q
  298. ------------------r
  299. ------------------s
  300. ------------------t
  301. ------------------u
  302. ------------------v
  303. ------------------w
  304. ------------------x
  305. ------------------y
  306. ------------------z
  307. -----------------1---1-100-1--j
  308. -----------------1-1--1--1--r
  309. -----------------a
  310. -----------------bcc119-------c
  311. -----------------bcc119-------l
  312. -----------------bcc119-------p
  313. -----------------c
  314. -----------------e
  315. -----------------g
  316. -----------------h
  317. -----------------i
  318. -----------------j
  319. -----------------l
  320. -----------------n
  321. -----------------o
  322. -----------------p
  323. -----------------r
  324. -----------------s
  325. -----------------t
  326. -----------------u
  327. -----------------v
  328. -----------------w
  329. -----------------x
  330. -----------------z
  331. ----------------1--1---1-1-1--e
  332. ----------------a
  333. ----------------b
  334. ----------------bcc119-------z
  335. ----------------c
  336. ----------------d
  337. ----------------e
  338. ----------------g
  339. ----------------h
  340. ----------------i
  341. ----------------j
  342. ----------------k
  343. ----------------l
  344. ----------------m
  345. ----------------n
  346. ----------------o
  347. ----------------p
  348. ----------------q
  349. ----------------r
  350. ----------------s
  351. ----------------t
  352. ----------------u
  353. ----------------v
  354. ----------------w
  355. ----------------x
  356. ----------------y
  357. ----------------z
  358. ---------------2---a
  359. ---------------2---d
  360. ---------------2---j
  361. ---------------2---n
  362. ---------------2---p
  363. ---------------2---q
  364. ---------------2---r
  365. ---------------2---t
  366. ---------------2---w
  367. ---------------6---109-c
  368. ---------------6---109-e
  369. ---------------6---109-m
  370. ---------------6---109-q
  371. ---------------a
  372. ---------------b
  373. ---------------bcc119-------a
  374. ---------------bcc119-------b
  375. ---------------bcc119-------j
  376. ---------------bcc119-------o
  377. ---------------bcc119-------u
  378. ---------------bcc119-------y
  379. ---------------bcc119------x
  380. ---------------c
  381. ---------------d
  382. ---------------e
  383. ---------------f
  384. ---------------g
  385. ---------------i
  386. ---------------j
  387. ---------------k
  388. ---------------l
  389. ---------------m
  390. ---------------o
  391. ---------------p
  392. ---------------q
  393. ---------------r
  394. ---------------s
  395. ---------------t
  396. ---------------u
  397. ---------------v
  398. ---------------w
  399. ---------------y
  400. --------------2013-9-40---------a
  401. --------------2013-9-40---------c
  402. --------------2013-9-40---------i
  403. --------------2013-9-40---------l
  404. --------------2013-9-40---------s
  405. --------------2013-9-40---------y
  406. --------------Copa-Amrica------Sport-Three--------------------Copa-Amrica--------------------------90------------------------90---------------------------------------------------------------------------------------q
  407. --------------FOOTBALLIST-q
  408. --------------Superjob-n
  409. --------------Superjob-p
  410. --------------Superjob-r
  411. --------------a
  412. --------------b
  413. --------------bcc119-------k
  414. --------------bcc119-------m
  415. --------------bcc119-------s
  416. --------------bcc119-------y
  417. --------------bcc119------s
  418. --------------c
  419. --------------d
  420. --------------e
  421. --------------f
  422. --------------g
  423. --------------h
  424. --------------i
  425. --------------j
  426. --------------k
  427. --------------l
  428. --------------m
  429. --------------n
  430. --------------o
  431. --------------p
  432. --------------q
  433. --------------r
  434. --------------s
  435. --------------t
  436. --------------u
  437. --------------v
  438. --------------w
  439. --------------x
  440. --------------y
  441. --------------z
  442. -------------Jobs-Ua-Id-1137488-o
  443. -------------Tiu-Ru-v
  444. -------------a
  445. -------------b
  446. -------------bcc119-------q
  447. -------------bcc119-----i
  448. -------------bitalpha---f
  449. -------------bitalpha---u
  450. -------------bitalpha---z
  451. -------------c
  452. -------------d
  453. -------------e
  454. -------------f
  455. -------------g
  456. -------------h
  457. -------------i
  458. -------------j
  459. -------------k
  460. -------------l
  461. -------------m
  462. -------------n
  463. -------------o
  464. -------------p
  465. -------------q
  466. -------------r
  467. -------------s
  468. -------------t
  469. -------------u
  470. -------------v
  471. -------------w
  472. -------------x
  473. -------------y
  474. -------------z
  475. ------------3-5---------------------------5---6------------2040-------------------------------Apple-Iphone--Ipads---o
  476. ------------Alit-s
  477. ------------Deal-By-z
  478. ------------Dos-puntos-importantes-sobre-la-compresin-de-aire-durante-diferentes-tipos-de-compresores-de-aire-k
  479. ------------Dos-puntos-importantes-sobre-una-compresin-de-aire-durante-diferentes-tipos-de-compresores-de-aire-f
  480. ------------FOOTBALLIST-z
  481. ------------Satu-Kz-a
  482. ------------Satu-Kz-u
  483. ------------Tiu-Ru-u
  484. ------------a
  485. ------------b
  486. ------------c
  487. ------------d
  488. ------------e
  489. ------------f
  490. ------------g
  491. ------------h
  492. ------------i
  493. ------------j
  494. ------------k
  495. ------------l
  496. ------------m
  497. ------------n
  498. ------------o
  499. ------------p
  500. ------------q

View (previous 500 | next 500) (20 | 50 | 100 | 250 | 500)