Dead-end pages

Jump to: navigation, search

The following pages do not link to other pages in Greening of Aiken.

Showing below up to 500 results in range #1 to #500.

View (previous 500 | next 500) (20 | 50 | 100 | 250 | 500)

  1. -----------------------------------------------------------------------------------------------------------------------------------------------------------------------------------------------------------------------c
  2. --------------------------------------------------------------------------------------------------------------------------------------------------------------------------------------------------------i
  3. --------------------------------------------------------------------------------------------------------------------------------------------------------------------------------------------------------p
  4. ------------------------------------------------------------------------------------------------------------------------------------------------------------------------------------------------------t
  5. ----------------------------------------------------------------------------------------------------------------------------------------------------------------------------------------------------k
  6. -------------------------------------------------------------------------------------------------------------------------------------------------------------------------------------------------b
  7. -------------------------------------------------------------------------------------------------------------------------------------------------------------------------------------------------n
  8. -------------------------------------------------------------------------------------------------------------------------------------------------------------------------------------------------o
  9. ------------------------------------------------------------------------------------------------------------------------------------------------------------------------------------------------j
  10. ------------------------------------------------------------------------------------------------------------------------------------------------------------------------------------------------l
  11. ----------------------------------------------------------------------------------------------------------------------------------------------------------------------------------------------f
  12. ----------------------------------------------------------------------------------------------------------------------------------------------------------------------------------------------y
  13. -------------------------------------------------------------------------------------------------------------------------------------------------------------------------------------------v
  14. ------------------------------------------------------------------------------------------------------------------------------------------------------------------------------------o
  15. ---------------------------------------------------------------------------------------------------------------------------------------------------------------------------------e
  16. ---------------------------------------------------------------------------------------------------------------------------------------------------------------------------------h
  17. ---------------------------------------------------------------------------------------------------------------------------------------------------------------------------------w
  18. -----------------------------------------------------------------------------------------------------------------------------------------------------------------------------e
  19. -----------------------------------------------------------------------------------------------------------------------------------------------------------------------------y
  20. ---------------------------------------------------------------------------------------------------------------------------------------------------------------------------c
  21. ---------------------------------------------------------------------------------------------------------------------------------------------------------------------------l
  22. ---------------------------------------------------------------------------------------------------------------------------------------------------------------------------m
  23. ---------------------------------------------------------------------------------------------------------------------------------------------------------------------------o
  24. ------------------------------------------------------------------------------------------------------------------------------------------------------------------------t
  25. -----------------------------------------------------------------------------------------------------------------------------------------------------------------------z
  26. ---------------------------------------------------------------------------------------------------------------------------------------------------------------------h
  27. ---------------------------------------------------------------------------------------------------------------------------------------------------------------------i
  28. ---------------------------------------------------------------------------------------------------------------------------------------------------------------------m
  29. --------------------------------------------------------------------------------------------------------------------------------------------------------------------h
  30. -----------------------------------------------------------------------------------------------------------------------------------------------------------------d
  31. -----------------------------------------------------------------------------------------------------------------------------------------------------------------u
  32. -------------------------------------------------------------------------------------------------------------------------------------------------------------j
  33. ------------------------------------------------------------------------------------------------------------------------------------------------------------s
  34. -----------------------------------------------------------------------------------------------------------------------------------------------------------c
  35. ---------------------------------------------------------------------------------------------------------------------------------------------------------x
  36. --------------------------------------------------------------------------------------------------------------------------------------------------------e
  37. ------------------------------------------------------------------------------------------------------------------------------------------------------l
  38. ------------------------------------------------------------------------------------------------------------------------------------------------------q
  39. ------------------------------------------------------------------------------------------------------------------------------------------------------y
  40. -----------------------------------------------------------------------------------------------------------------------------------------5---------------------------------------------------r
  41. ------------------------------------------------------------------------------------------------------------------------------------50-----100000-------------g
  42. -----------------------------------------------------------------------------------------------------------------------------k
  43. ---------------------------------------------------------------------------------------------------------------------------10----------------------------------------------------------d
  44. ---------------------------------------------------------------------------------------------------------------------------10----------------------------------------------------------o
  45. ---------------------------------------------------------------------------------------------------------------------------100-------------------------------------------------------------------d
  46. ----------------------------------------------------------------------------------------------------5-----------------------------------------------------------------a
  47. -------------------------------------------------------------------------------------Ace---------------------------------39----------13-------------3-------------------------Round--------------------------------------------------------h
  48. ----------------------------------------------------------------------------------888------22bet-----1500---------f
  49. ------------------------------------------------------------------------------Hazarat-bet------------------------------------------------------------------------------------k
  50. ---------------------------------------------------------------------pablo-bet----------------------------------------------------------------------------------------------------------------------v
  51. -----------------------------------------------------------100----------------------------------------------------------------------------------------------------------------------m
  52. -----------------------------------------------------------gorgbet-------------------------------98------------------------------------------------------TakTik---------------------------1398-------a
  53. ----------------------------------------------------------124--------------------21---4----------------------------------870--------------------------------SPSS--Lisrel------------------------------x
  54. --------------------------------------------------------h
  55. --------------------------------------------------f
  56. --------------------------------------------------o
  57. --------------------------------------------------w
  58. --------------------------------------------------z
  59. ------------------------------------------------Super-One---------23---1-----------------------------------------------d
  60. ---------------------------------------------a
  61. --------------------------------------------h
  62. --------------------------------------------p
  63. --------------------------------------------x
  64. --------------------------------------------y
  65. -------------------------------------------Top-Hand--Top-Rake-------1932500000---------0000------25k50k------3------------100---Top-Rake-------24--------RANKING-----------------------------------------------------------------------------------1----------k
  66. -------------------------------------------Top-Hand--Top-Rake-------1932500000---------0000------25k50k------3------------100---Top-Rake-------24--------RANKING-----------------------------------------------------------------------------------1----------n
  67. ------------------------------------------50IRT------------------------------------------------------------------------------------------------------------------------------------l
  68. ------------------------------------------u
  69. ----------------------------------------a
  70. ----------------------------------------g
  71. ----------------------------------------t
  72. ---------------------------------------1------m
  73. --------------------------------------betfa---------------------------------------------------------------------------------------------------------------------------------------betfa----------f
  74. --------------------------------------c
  75. --------------------------------------e
  76. --------------------------------------f
  77. --------------------------------------g
  78. --------------------------------------h
  79. --------------------------------------i
  80. --------------------------------------k
  81. --------------------------------------n
  82. --------------------------------------w
  83. -------------------------------------o
  84. ------------------------------------c
  85. ------------------------------------d
  86. ------------------------------------f
  87. ------------------------------------g
  88. ------------------------------------l
  89. ------------------------------------m
  90. ------------------------------------n
  91. ------------------------------------q
  92. ------------------------------------r
  93. ------------------------------------s
  94. ------------------------------------x
  95. ------------------------------------y
  96. ------------------------------------z
  97. -----------------------------------1------e
  98. -------------------------------d
  99. -------------------------------g
  100. -------------------------------l
  101. -------------------------------n
  102. -------------------------------s
  103. -------------------------------u
  104. -------------------------------v
  105. -------------------------------w
  106. -------------------------------y
  107. ------------------------------1-------t
  108. ------------------------------19--------------------------------------------------------------------5----7-----2------5---------------------------------royal-flush-------------------------x
  109. ------------------------------3-----------------------------------3--------------------------------2---------------------------------------------------------------z
  110. ------------------------------d
  111. ------------------------------m
  112. -----------------------------1------v
  113. -----------------------------d
  114. -----------------------------j
  115. -----------------------------k
  116. -----------------------------n
  117. -----------------------------o
  118. -----------------------------p
  119. -----------------------------q
  120. -----------------------------r
  121. -----------------------------s
  122. -----------------------------u
  123. -----------------------------v
  124. -----------------------------x
  125. -----------------------------z
  126. ----------------------------g
  127. ----------------------------q
  128. ----------------------------u
  129. ----------------------------x
  130. ---------------------------2020---------------------g
  131. ---------------------------40---b
  132. ---------------------------40---e
  133. ---------------------------40---q
  134. ---------------------------40---s
  135. ---------------------------a
  136. ---------------------------b
  137. ---------------------------c
  138. ---------------------------d
  139. ---------------------------e
  140. ---------------------------f
  141. ---------------------------g
  142. ---------------------------h
  143. ---------------------------i
  144. ---------------------------j
  145. ---------------------------l
  146. ---------------------------m
  147. ---------------------------n
  148. ---------------------------r
  149. ---------------------------u
  150. ---------------------------x
  151. ---------------------------y
  152. --------------------------2----------------h
  153. --------------------------e
  154. --------------------------g
  155. --------------------------h
  156. --------------------------i
  157. --------------------------m
  158. --------------------------n
  159. --------------------------p
  160. --------------------------s
  161. --------------------------u
  162. --------------------------v
  163. --------------------------w
  164. --------------------------x
  165. --------------------------z
  166. -------------------------1xbet----------------------Single-Player----Multi-Player---1xbet-----------------------------------------------------------------------------------------------------y
  167. -------------------------f
  168. -------------------------g
  169. -------------------------j
  170. -------------------------k
  171. -------------------------l
  172. -------------------------m
  173. -------------------------o
  174. -------------------------p
  175. -------------------------r
  176. -------------------------t
  177. -------------------------u
  178. -------------------------v
  179. ------------------------1398------------------------------------------------------------------------------------------------------------------------------k
  180. ------------------------2018--2018-2018-w
  181. ------------------------3--25000-----o
  182. ------------------------3--25000-----q
  183. ------------------------3--25000-----t
  184. ------------------------3--25000-----u
  185. ------------------------a
  186. ------------------------b
  187. ------------------------f
  188. ------------------------g
  189. ------------------------h
  190. ------------------------i
  191. ------------------------l
  192. ------------------------m
  193. ------------------------n
  194. ------------------------p
  195. ------------------------q
  196. ------------------------s
  197. ------------------------u
  198. ------------------------v
  199. ------------------------w
  200. ------------------------x
  201. -----------------------1---1-1--q
  202. -----------------------LG--CATL------------d
  203. -----------------------LG--CATL------------e
  204. -----------------------LG--CATL------------h
  205. -----------------------LG--CATL------------i
  206. -----------------------LG--CATL------------k
  207. -----------------------LG--CATL------------l
  208. -----------------------LG--CATL------------r
  209. -----------------------LG--CATL------------t
  210. -----------------------LG--CATL------------x
  211. -----------------------LG--CATL------------y
  212. -----------------------c
  213. -----------------------d
  214. -----------------------e
  215. -----------------------f
  216. -----------------------h
  217. -----------------------j
  218. -----------------------l
  219. -----------------------o
  220. -----------------------p
  221. -----------------------r
  222. -----------------------t
  223. -----------------------v
  224. -----------------------w
  225. -----------------------z
  226. ----------------------1-1---a
  227. ----------------------56------k
  228. ----------------------56------o
  229. ----------------------56------u
  230. ----------------------a
  231. ----------------------b
  232. ----------------------c
  233. ----------------------d
  234. ----------------------e
  235. ----------------------f
  236. ----------------------g
  237. ----------------------h
  238. ----------------------j
  239. ----------------------k
  240. ----------------------l
  241. ----------------------n
  242. ----------------------o
  243. ----------------------p
  244. ----------------------q
  245. ----------------------r
  246. ----------------------s
  247. ----------------------t
  248. ----------------------u
  249. ----------------------w
  250. ----------------------x
  251. ----------------------y
  252. ----------------------z
  253. ---------------------SEO-------g
  254. ---------------------a
  255. ---------------------b
  256. ---------------------c
  257. ---------------------d
  258. ---------------------e
  259. ---------------------f
  260. ---------------------g
  261. ---------------------h
  262. ---------------------i
  263. ---------------------j
  264. ---------------------k
  265. ---------------------l
  266. ---------------------m
  267. ---------------------n
  268. ---------------------o
  269. ---------------------t
  270. ---------------------v
  271. ---------------------w
  272. ---------------------x
  273. ---------------------y
  274. ---------------------z
  275. --------------------1---1-100-n
  276. --------------------a
  277. --------------------b
  278. --------------------c
  279. --------------------d
  280. --------------------f
  281. --------------------g
  282. --------------------h
  283. --------------------i
  284. --------------------j
  285. --------------------k
  286. --------------------l
  287. --------------------m
  288. --------------------o
  289. --------------------q
  290. --------------------r
  291. --------------------s
  292. --------------------t
  293. --------------------u
  294. --------------------v
  295. --------------------w
  296. --------------------x
  297. --------------------y
  298. --------------------z
  299. -------------------1---25------PBA-5--PBA---4243-1511-815-1315-154-151-015-117-------------sss-----------------CJ-ENM----2----na--------------------------------------------TV------------10-----t
  300. -------------------2-1949------------------------------20----------------------------Alan-Pease--------------------------------------------------------23-----------15-----reverse-----------n
  301. -------------------a
  302. -------------------b
  303. -------------------c
  304. -------------------d
  305. -------------------e
  306. -------------------f
  307. -------------------g
  308. -------------------h
  309. -------------------i
  310. -------------------j
  311. -------------------k
  312. -------------------l
  313. -------------------m
  314. -------------------n
  315. -------------------o
  316. -------------------p
  317. -------------------q
  318. -------------------r
  319. -------------------s
  320. -------------------t
  321. -------------------u
  322. -------------------v
  323. -------------------w
  324. -------------------x
  325. -------------------y
  326. -------------------z
  327. ------------------1---1-p
  328. ------------------1-1---u
  329. ------------------49--------------ag-----------------------------------------------------------------------------------------------------------k
  330. ------------------SEO-------w
  331. ------------------a
  332. ------------------b
  333. ------------------c
  334. ------------------d
  335. ------------------e
  336. ------------------f
  337. ------------------g
  338. ------------------h
  339. ------------------i
  340. ------------------j
  341. ------------------k
  342. ------------------l
  343. ------------------m
  344. ------------------n
  345. ------------------o
  346. ------------------p
  347. ------------------q
  348. ------------------r
  349. ------------------s
  350. ------------------t
  351. ------------------u
  352. ------------------v
  353. ------------------w
  354. ------------------x
  355. ------------------y
  356. ------------------z
  357. -----------------1---1-100-1--j
  358. -----------------1-1--1--1--r
  359. -----------------a
  360. -----------------bcc119-------c
  361. -----------------bcc119-------l
  362. -----------------bcc119-------p
  363. -----------------c
  364. -----------------e
  365. -----------------g
  366. -----------------h
  367. -----------------i
  368. -----------------j
  369. -----------------l
  370. -----------------n
  371. -----------------o
  372. -----------------p
  373. -----------------r
  374. -----------------s
  375. -----------------t
  376. -----------------u
  377. -----------------v
  378. -----------------w
  379. -----------------x
  380. -----------------z
  381. ----------------1--1---1-1-1--e
  382. ----------------a
  383. ----------------b
  384. ----------------bcc119-------z
  385. ----------------c
  386. ----------------d
  387. ----------------e
  388. ----------------g
  389. ----------------h
  390. ----------------i
  391. ----------------j
  392. ----------------k
  393. ----------------l
  394. ----------------m
  395. ----------------n
  396. ----------------o
  397. ----------------p
  398. ----------------q
  399. ----------------r
  400. ----------------s
  401. ----------------t
  402. ----------------u
  403. ----------------v
  404. ----------------w
  405. ----------------x
  406. ----------------y
  407. ----------------z
  408. ---------------2---a
  409. ---------------2---d
  410. ---------------2---j
  411. ---------------2---n
  412. ---------------2---p
  413. ---------------2---q
  414. ---------------2---r
  415. ---------------2---t
  416. ---------------2---w
  417. ---------------6---109-c
  418. ---------------6---109-e
  419. ---------------6---109-m
  420. ---------------6---109-q
  421. ---------------a
  422. ---------------b
  423. ---------------bcc119-------a
  424. ---------------bcc119-------b
  425. ---------------bcc119-------j
  426. ---------------bcc119-------o
  427. ---------------bcc119-------u
  428. ---------------bcc119-------y
  429. ---------------bcc119------x
  430. ---------------c
  431. ---------------d
  432. ---------------e
  433. ---------------f
  434. ---------------g
  435. ---------------i
  436. ---------------j
  437. ---------------k
  438. ---------------l
  439. ---------------m
  440. ---------------o
  441. ---------------p
  442. ---------------q
  443. ---------------r
  444. ---------------s
  445. ---------------t
  446. ---------------u
  447. ---------------v
  448. ---------------w
  449. ---------------y
  450. --------------2013-9-40---------a
  451. --------------2013-9-40---------c
  452. --------------2013-9-40---------i
  453. --------------2013-9-40---------l
  454. --------------2013-9-40---------s
  455. --------------2013-9-40---------y
  456. --------------Copa-Amrica------Sport-Three--------------------Copa-Amrica--------------------------90------------------------90---------------------------------------------------------------------------------------q
  457. --------------FOOTBALLIST-q
  458. --------------Superjob-n
  459. --------------Superjob-p
  460. --------------Superjob-r
  461. --------------a
  462. --------------b
  463. --------------bcc119-------k
  464. --------------bcc119-------m
  465. --------------bcc119-------s
  466. --------------bcc119-------y
  467. --------------bcc119------s
  468. --------------c
  469. --------------d
  470. --------------e
  471. --------------f
  472. --------------g
  473. --------------h
  474. --------------i
  475. --------------j
  476. --------------k
  477. --------------l
  478. --------------m
  479. --------------n
  480. --------------o
  481. --------------p
  482. --------------q
  483. --------------r
  484. --------------s
  485. --------------t
  486. --------------u
  487. --------------v
  488. --------------w
  489. --------------x
  490. --------------y
  491. --------------z
  492. -------------Jobs-Ua-Id-1137488-o
  493. -------------Tiu-Ru-v
  494. -------------a
  495. -------------b
  496. -------------bcc119-------q
  497. -------------bcc119-----i
  498. -------------bitalpha---f
  499. -------------bitalpha---u
  500. -------------bitalpha---z

View (previous 500 | next 500) (20 | 50 | 100 | 250 | 500)