Dead-end pages

Jump to: navigation, search

The following pages do not link to other pages in Greening of Aiken.

Showing below up to 250 results in range #51 to #300.

View (previous 250 | next 250) (20 | 50 | 100 | 250 | 500)

  1. -----------------------------------------------------------100----------------------------------------------------------------------------------------------------------------------m
  2. -----------------------------------------------------------gorgbet-------------------------------98------------------------------------------------------TakTik---------------------------1398-------a
  3. ----------------------------------------------------------124--------------------21---4----------------------------------870--------------------------------SPSS--Lisrel------------------------------x
  4. --------------------------------------------------------h
  5. --------------------------------------------------f
  6. --------------------------------------------------o
  7. --------------------------------------------------w
  8. --------------------------------------------------z
  9. ------------------------------------------------Super-One---------23---1-----------------------------------------------d
  10. ---------------------------------------------a
  11. --------------------------------------------h
  12. --------------------------------------------p
  13. --------------------------------------------x
  14. --------------------------------------------y
  15. -------------------------------------------Top-Hand--Top-Rake-------1932500000---------0000------25k50k------3------------100---Top-Rake-------24--------RANKING-----------------------------------------------------------------------------------1----------k
  16. -------------------------------------------Top-Hand--Top-Rake-------1932500000---------0000------25k50k------3------------100---Top-Rake-------24--------RANKING-----------------------------------------------------------------------------------1----------n
  17. ------------------------------------------50IRT------------------------------------------------------------------------------------------------------------------------------------l
  18. ------------------------------------------u
  19. ----------------------------------------a
  20. ----------------------------------------g
  21. ----------------------------------------t
  22. ---------------------------------------1------m
  23. --------------------------------------betfa---------------------------------------------------------------------------------------------------------------------------------------betfa----------f
  24. --------------------------------------c
  25. --------------------------------------e
  26. --------------------------------------f
  27. --------------------------------------g
  28. --------------------------------------h
  29. --------------------------------------i
  30. --------------------------------------k
  31. --------------------------------------n
  32. --------------------------------------w
  33. -------------------------------------o
  34. ------------------------------------c
  35. ------------------------------------d
  36. ------------------------------------f
  37. ------------------------------------g
  38. ------------------------------------l
  39. ------------------------------------m
  40. ------------------------------------n
  41. ------------------------------------q
  42. ------------------------------------r
  43. ------------------------------------s
  44. ------------------------------------x
  45. ------------------------------------y
  46. ------------------------------------z
  47. -----------------------------------1------e
  48. -------------------------------d
  49. -------------------------------g
  50. -------------------------------l
  51. -------------------------------n
  52. -------------------------------s
  53. -------------------------------u
  54. -------------------------------v
  55. -------------------------------w
  56. -------------------------------y
  57. ------------------------------1-------t
  58. ------------------------------19--------------------------------------------------------------------5----7-----2------5---------------------------------royal-flush-------------------------x
  59. ------------------------------3-----------------------------------3--------------------------------2---------------------------------------------------------------z
  60. ------------------------------d
  61. ------------------------------m
  62. -----------------------------1------v
  63. -----------------------------d
  64. -----------------------------j
  65. -----------------------------k
  66. -----------------------------n
  67. -----------------------------o
  68. -----------------------------p
  69. -----------------------------q
  70. -----------------------------r
  71. -----------------------------s
  72. -----------------------------u
  73. -----------------------------v
  74. -----------------------------x
  75. -----------------------------z
  76. ----------------------------g
  77. ----------------------------q
  78. ----------------------------u
  79. ----------------------------x
  80. ---------------------------2020---------------------g
  81. ---------------------------40---b
  82. ---------------------------40---e
  83. ---------------------------40---q
  84. ---------------------------40---s
  85. ---------------------------a
  86. ---------------------------b
  87. ---------------------------c
  88. ---------------------------d
  89. ---------------------------e
  90. ---------------------------f
  91. ---------------------------g
  92. ---------------------------h
  93. ---------------------------i
  94. ---------------------------j
  95. ---------------------------l
  96. ---------------------------m
  97. ---------------------------n
  98. ---------------------------r
  99. ---------------------------u
  100. ---------------------------x
  101. ---------------------------y
  102. --------------------------2----------------h
  103. --------------------------e
  104. --------------------------g
  105. --------------------------h
  106. --------------------------i
  107. --------------------------m
  108. --------------------------n
  109. --------------------------p
  110. --------------------------s
  111. --------------------------u
  112. --------------------------v
  113. --------------------------w
  114. --------------------------x
  115. --------------------------z
  116. -------------------------1xbet----------------------Single-Player----Multi-Player---1xbet-----------------------------------------------------------------------------------------------------y
  117. -------------------------f
  118. -------------------------g
  119. -------------------------j
  120. -------------------------k
  121. -------------------------l
  122. -------------------------m
  123. -------------------------o
  124. -------------------------p
  125. -------------------------r
  126. -------------------------t
  127. -------------------------u
  128. -------------------------v
  129. ------------------------1398------------------------------------------------------------------------------------------------------------------------------k
  130. ------------------------2018--2018-2018-w
  131. ------------------------3--25000-----o
  132. ------------------------3--25000-----q
  133. ------------------------3--25000-----t
  134. ------------------------3--25000-----u
  135. ------------------------a
  136. ------------------------b
  137. ------------------------f
  138. ------------------------g
  139. ------------------------h
  140. ------------------------i
  141. ------------------------l
  142. ------------------------m
  143. ------------------------n
  144. ------------------------p
  145. ------------------------q
  146. ------------------------s
  147. ------------------------u
  148. ------------------------v
  149. ------------------------w
  150. ------------------------x
  151. -----------------------1---1-1--q
  152. -----------------------LG--CATL------------d
  153. -----------------------LG--CATL------------e
  154. -----------------------LG--CATL------------h
  155. -----------------------LG--CATL------------i
  156. -----------------------LG--CATL------------k
  157. -----------------------LG--CATL------------l
  158. -----------------------LG--CATL------------r
  159. -----------------------LG--CATL------------t
  160. -----------------------LG--CATL------------x
  161. -----------------------LG--CATL------------y
  162. -----------------------c
  163. -----------------------d
  164. -----------------------e
  165. -----------------------f
  166. -----------------------h
  167. -----------------------j
  168. -----------------------l
  169. -----------------------o
  170. -----------------------p
  171. -----------------------r
  172. -----------------------t
  173. -----------------------v
  174. -----------------------w
  175. -----------------------z
  176. ----------------------1-1---a
  177. ----------------------56------k
  178. ----------------------56------o
  179. ----------------------56------u
  180. ----------------------a
  181. ----------------------b
  182. ----------------------c
  183. ----------------------d
  184. ----------------------e
  185. ----------------------f
  186. ----------------------g
  187. ----------------------h
  188. ----------------------j
  189. ----------------------k
  190. ----------------------l
  191. ----------------------n
  192. ----------------------o
  193. ----------------------p
  194. ----------------------q
  195. ----------------------r
  196. ----------------------s
  197. ----------------------t
  198. ----------------------u
  199. ----------------------w
  200. ----------------------x
  201. ----------------------y
  202. ----------------------z
  203. ---------------------SEO-------g
  204. ---------------------a
  205. ---------------------b
  206. ---------------------c
  207. ---------------------d
  208. ---------------------e
  209. ---------------------f
  210. ---------------------g
  211. ---------------------h
  212. ---------------------i
  213. ---------------------j
  214. ---------------------k
  215. ---------------------l
  216. ---------------------m
  217. ---------------------n
  218. ---------------------o
  219. ---------------------t
  220. ---------------------v
  221. ---------------------w
  222. ---------------------x
  223. ---------------------y
  224. ---------------------z
  225. --------------------1---1-100-n
  226. --------------------a
  227. --------------------b
  228. --------------------c
  229. --------------------d
  230. --------------------f
  231. --------------------g
  232. --------------------h
  233. --------------------i
  234. --------------------j
  235. --------------------k
  236. --------------------l
  237. --------------------m
  238. --------------------o
  239. --------------------q
  240. --------------------r
  241. --------------------s
  242. --------------------t
  243. --------------------u
  244. --------------------v
  245. --------------------w
  246. --------------------x
  247. --------------------y
  248. --------------------z
  249. -------------------1---25------PBA-5--PBA---4243-1511-815-1315-154-151-015-117-------------sss-----------------CJ-ENM----2----na--------------------------------------------TV------------10-----t
  250. -------------------2-1949------------------------------20----------------------------Alan-Pease--------------------------------------------------------23-----------15-----reverse-----------n

View (previous 250 | next 250) (20 | 50 | 100 | 250 | 500)