Dead-end pages

Jump to: navigation, search

The following pages do not link to other pages in Greening of Aiken.

Showing below up to 250 results in range #251 to #500.

View (previous 250 | next 250) (20 | 50 | 100 | 250 | 500)

  1. ----------------------y
  2. ----------------------z
  3. ---------------------SEO-------g
  4. ---------------------a
  5. ---------------------b
  6. ---------------------c
  7. ---------------------d
  8. ---------------------e
  9. ---------------------f
  10. ---------------------g
  11. ---------------------h
  12. ---------------------i
  13. ---------------------j
  14. ---------------------k
  15. ---------------------l
  16. ---------------------m
  17. ---------------------n
  18. ---------------------o
  19. ---------------------t
  20. ---------------------v
  21. ---------------------w
  22. ---------------------x
  23. ---------------------y
  24. ---------------------z
  25. --------------------1---1-100-n
  26. --------------------a
  27. --------------------b
  28. --------------------c
  29. --------------------d
  30. --------------------f
  31. --------------------g
  32. --------------------h
  33. --------------------i
  34. --------------------j
  35. --------------------k
  36. --------------------l
  37. --------------------m
  38. --------------------o
  39. --------------------q
  40. --------------------r
  41. --------------------s
  42. --------------------t
  43. --------------------u
  44. --------------------v
  45. --------------------w
  46. --------------------x
  47. --------------------y
  48. --------------------z
  49. -------------------1---25------PBA-5--PBA---4243-1511-815-1315-154-151-015-117-------------sss-----------------CJ-ENM----2----na--------------------------------------------TV------------10-----t
  50. -------------------2-1949------------------------------20----------------------------Alan-Pease--------------------------------------------------------23-----------15-----reverse-----------n
  51. -------------------a
  52. -------------------b
  53. -------------------c
  54. -------------------d
  55. -------------------e
  56. -------------------f
  57. -------------------g
  58. -------------------h
  59. -------------------i
  60. -------------------j
  61. -------------------k
  62. -------------------l
  63. -------------------m
  64. -------------------n
  65. -------------------o
  66. -------------------p
  67. -------------------q
  68. -------------------r
  69. -------------------s
  70. -------------------t
  71. -------------------u
  72. -------------------v
  73. -------------------w
  74. -------------------x
  75. -------------------y
  76. -------------------z
  77. ------------------1---1-p
  78. ------------------1-1---u
  79. ------------------49--------------ag-----------------------------------------------------------------------------------------------------------k
  80. ------------------SEO-------w
  81. ------------------a
  82. ------------------b
  83. ------------------c
  84. ------------------d
  85. ------------------e
  86. ------------------f
  87. ------------------g
  88. ------------------h
  89. ------------------i
  90. ------------------j
  91. ------------------k
  92. ------------------l
  93. ------------------m
  94. ------------------n
  95. ------------------o
  96. ------------------p
  97. ------------------q
  98. ------------------r
  99. ------------------s
  100. ------------------t
  101. ------------------u
  102. ------------------v
  103. ------------------w
  104. ------------------x
  105. ------------------y
  106. ------------------z
  107. -----------------1---1-100-1--j
  108. -----------------1-1--1--1--r
  109. -----------------a
  110. -----------------bcc119-------c
  111. -----------------bcc119-------l
  112. -----------------bcc119-------p
  113. -----------------c
  114. -----------------e
  115. -----------------g
  116. -----------------h
  117. -----------------i
  118. -----------------j
  119. -----------------l
  120. -----------------n
  121. -----------------o
  122. -----------------p
  123. -----------------r
  124. -----------------s
  125. -----------------t
  126. -----------------u
  127. -----------------v
  128. -----------------w
  129. -----------------x
  130. -----------------z
  131. ----------------1--1---1-1-1--e
  132. ----------------a
  133. ----------------b
  134. ----------------bcc119-------z
  135. ----------------c
  136. ----------------d
  137. ----------------e
  138. ----------------g
  139. ----------------h
  140. ----------------i
  141. ----------------j
  142. ----------------k
  143. ----------------l
  144. ----------------m
  145. ----------------n
  146. ----------------o
  147. ----------------p
  148. ----------------q
  149. ----------------r
  150. ----------------s
  151. ----------------t
  152. ----------------u
  153. ----------------v
  154. ----------------w
  155. ----------------x
  156. ----------------y
  157. ----------------z
  158. ---------------2---a
  159. ---------------2---d
  160. ---------------2---j
  161. ---------------2---n
  162. ---------------2---p
  163. ---------------2---q
  164. ---------------2---r
  165. ---------------2---t
  166. ---------------2---w
  167. ---------------6---109-c
  168. ---------------6---109-e
  169. ---------------6---109-m
  170. ---------------6---109-q
  171. ---------------a
  172. ---------------b
  173. ---------------bcc119-------a
  174. ---------------bcc119-------b
  175. ---------------bcc119-------j
  176. ---------------bcc119-------o
  177. ---------------bcc119-------u
  178. ---------------bcc119-------y
  179. ---------------bcc119------x
  180. ---------------c
  181. ---------------d
  182. ---------------e
  183. ---------------f
  184. ---------------g
  185. ---------------i
  186. ---------------j
  187. ---------------k
  188. ---------------l
  189. ---------------m
  190. ---------------o
  191. ---------------p
  192. ---------------q
  193. ---------------r
  194. ---------------s
  195. ---------------t
  196. ---------------u
  197. ---------------v
  198. ---------------w
  199. ---------------y
  200. --------------2013-9-40---------a
  201. --------------2013-9-40---------c
  202. --------------2013-9-40---------i
  203. --------------2013-9-40---------l
  204. --------------2013-9-40---------s
  205. --------------2013-9-40---------y
  206. --------------Copa-Amrica------Sport-Three--------------------Copa-Amrica--------------------------90------------------------90---------------------------------------------------------------------------------------q
  207. --------------FOOTBALLIST-q
  208. --------------Superjob-n
  209. --------------Superjob-p
  210. --------------Superjob-r
  211. --------------a
  212. --------------b
  213. --------------bcc119-------k
  214. --------------bcc119-------m
  215. --------------bcc119-------s
  216. --------------bcc119-------y
  217. --------------bcc119------s
  218. --------------c
  219. --------------d
  220. --------------e
  221. --------------f
  222. --------------g
  223. --------------h
  224. --------------i
  225. --------------j
  226. --------------k
  227. --------------l
  228. --------------m
  229. --------------n
  230. --------------o
  231. --------------p
  232. --------------q
  233. --------------r
  234. --------------s
  235. --------------t
  236. --------------u
  237. --------------v
  238. --------------w
  239. --------------x
  240. --------------y
  241. --------------z
  242. -------------Jobs-Ua-Id-1137488-o
  243. -------------Tiu-Ru-v
  244. -------------a
  245. -------------b
  246. -------------bcc119-------q
  247. -------------bcc119-----i
  248. -------------bitalpha---f
  249. -------------bitalpha---u
  250. -------------bitalpha---z

View (previous 250 | next 250) (20 | 50 | 100 | 250 | 500)